bass groove

(/) Slide Up  (\) Slide Down  (h) Hammer On  (p) Pull Off  (b) Bend (r) Release (v) Vibrato

E|-----------------------------------
B|-----------------------------------
G|-----------------------------------
D|--------7--9-----------------------
A|-----5---------------9--10--10--9--
E|--3-----------7--10----------------



E|---------------------------------------------
B|---------------------------------------------
G|---------------------------------------------
D|------------4-----------5-----5--4--5--4--2--
A|---------5-----------4-----------------------
E|--10--7--------5--5--------3-----------------
http://www.guitartabcreator.com
Guitar Tab Creator is intended to store guitar tab created through the tool. It currently does not support in-line text editing. Any text you place in here will be lost. If you need to comment on your tab, please use the "Tab Notes" section located below.