with you lead

(/) Slide Up  (\) Slide Down  (h) Hammer On  (p) Pull Off  (b) Bend (r) Release (v) Vibrato


E|------------------------------0--------------------------------
B|-0-------------------------------------------------------------
G|-0-----0-----0-----2v-0h2p0-----2---2-2/9-9\7-7\5-4v-4-4-4h5-1-
D|-2-0h2---0h2---0h2----------2-----2----------------------------
A|-3-------------------------------------------------------------
E|---------------------------------------------------------------



E|------8----8----8----8----8----10-10/12-8----8----8----12----------------
B|-6/10---10---10---10---10---10------------10---10---10----10-10-10-10-10-
G|-------------------------------------------------------------------------
D|-------------------------------------------------------------------------
A|-------------------------------------------------------------------------
E|-------------------------------------------------------------------------
http://www.guitartabcreator.com
Guitar Tab Creator is intended to store guitar tab created through the tool. It currently does not support in-line text editing. Any text you place in here will be lost. If you need to comment on your tab, please use the "Tab Notes" section located below.