Patch It Up

(/) Slide Up  (\) Slide Down  (h) Hammer On  (p) Pull Off  (b) Bend (r) Release (v) Vibrato
E|-9--9--9--9--9--9--9--9--|-------------------------|-----------------|-7-7-7-7-7-7-7-7-|-
B|-9--9--9--9--9--9--9--9--|-11-11-11-11-11-11-11-11-|-9-9-9-9-9-9-9-9-|-7-7-7-7-7-7-7-7-|-
G|-10-10-10-10-10-10-10-10-|-11-11-11-11-11-11-11-11-|-9-9-9-9-9-9-9-9-|-8-8-8-8-8-8-8-8-|-
D|-11-11-11-11-11-11-11-11-|-11-11-11-11-11-11-11-11-|-9-9-9-9-9-9-9-9-|-9-9-9-9-9-9-9-9-|-
A|-11-11-11-11-11-11-11-11-|-9--9--9--9--9--9--9--9--|-7-7-7-7-7-7-7-7-|-9-9-9-9-9-9-9-9-|-
E|-9--9--9--9--9--9--9--9--|-------------------------|-----------------|-7-7-7-7-7-7-7-7-|-



E|-9--9--9--9--9--9--9--9--|-------------------------|-----------------|-7---------------|-
B|-9--9--9--9--9--9--9--9--|-11-11-11-11-11-11-11-11-|-9-9-9-9-9-9-9-9-|-7---------------|-
G|-10-10-10-10-10-10-10-10-|-11-11-11-11-11-11-11-11-|-9-9-9-9-9-9-9-9-|-8---------------|-
D|-11-11-11-11-11-11-11-11-|-11-11-11-11-11-11-11-11-|-9-9-9-9-9-9-9-9-|-9---------------|-
A|-11-11-11-11-11-11-11-11-|-9--9--9--9--9--9--9--9--|-7-7-7-7-7-7-7-7-|-9---------------|-
E|-9--9--9--9--9--9--9--9--|-------------------------|-----------------|-7---------------|-



E|-----------11--------|-------------|---------9-----|-11-----9-------------|-
B|------9-------9----9-|-12-11-9--11-|-----7-----7---|----7-----7---7---7---|-
G|-6/10---10------10---|-11-11-11-11-|-6/8---8-----8-|------8-----8---8---8-|-
D|---------------------|-------------|---------------|----------------------|-
A|---------------------|-------------|---------------|----------------------|-
E|---------------------|-------------|---------------|----------------------|-



E|-----------11--------|-------------|---------9-----|-11-------------------|-
B|------9-------9----9-|-12-11-9--11-|-----7-----7---|----------------------|-
G|-6/10---10------10---|-11-11-11-11-|-6/8---8-----8-|----------------------|-
D|---------------------|-------------|---------------|----------------------|-
A|---------------------|-------------|---------------|----------------------|-
E|---------------------|-------------|---------------|----------------------|-



E|-----------11--------|-------------|---------9-----|-11-----9-------------|-
B|------9-------9----9-|-12-11-9--11-|-----7-----7---|----7-----7---7---7---|-
G|-6/10---10------10---|-11-11-11-11-|-6/8---8-----8-|------8-----8---8---8-|-
D|---------------------|-------------|---------------|----------------------|-
A|---------------------|-------------|---------------|----------------------|-
E|---------------------|-------------|---------------|----------------------|-



E|-9--9--9--9--9--9--9--9--|-------------------------|-----------------|-7-7-7-7-7-7-7-7-|-
B|-9--9--9--9--9--9--9--9--|-11-11-11-11-11-11-11-11-|-9-9-9-9-9-9-9-9-|-7-7-7-7-7-7-7-7-|-
G|-10-10-10-10-10-10-10-10-|-11-11-11-11-11-11-11-11-|-9-9-9-9-9-9-9-9-|-8-8-8-8-8-8-8-8-|-
D|-11-11-11-11-11-11-11-11-|-11-11-11-11-11-11-11-11-|-9-9-9-9-9-9-9-9-|-9-9-9-9-9-9-9-9-|-
A|-11-11-11-11-11-11-11-11-|-9--9--9--9--9--9--9--9--|-7-7-7-7-7-7-7-7-|-9-9-9-9-9-9-9-9-|-
E|-9--9--9--9--9--9--9--9--|-------------------------|-----------------|-7-7-7-7-7-7-7-7-|-



E|-9--9--9--9--9--9--9--9--|-------------------------|-----------------|-7---------------|-
B|-9--9--9--9--9--9--9--9--|-11-11-11-11-11-11-11-11-|-9-9-9-9-9-9-9-9-|-7---------------|-
G|-10-10-10-10-10-10-10-10-|-11-11-11-11-11-11-11-11-|-9-9-9-9-9-9-9-9-|-8---------------|-
D|-11-11-11-11-11-11-11-11-|-11-11-11-11-11-11-11-11-|-9-9-9-9-9-9-9-9-|-9---------------|-
A|-11-11-11-11-11-11-11-11-|-9--9--9--9--9--9--9--9--|-7-7-7-7-7-7-7-7-|-9---------------|-
E|-9--9--9--9--9--9--9--9--|-------------------------|-----------------|-7---------------|-



E|-------------|-----------|-------------|-----------|-
B|-------------|-----------|-------------|-----------|-
G|-------------|-----------|-------------|-----------|-
D|--------11-8-|-----------|--------11-8-|-----------|-
A|---8-11------|-8-8-8-9-8-|---8-11------|-8-8-8-9-8-|-
E|-9-----------|-----------|-9-----------|-----------|-



E|---------------|--------------|-----------|-------------|---------------|--------------|-----------|-------------|-
B|------11----11-|----9----9----|-6-7-6-7-6-|-9-7-6-9-7-6-|------11----11-|----9----9----|-6-7-6-7-6-|-9-7-6-9-7-6-|-
G|-8/10----10----|-10---10---10-|-----------|-------------|-8/10----10----|-10---10---10-|-----------|-------------|-
D|---------------|--------------|-----------|-------------|---------------|--------------|-----------|-------------|-
A|---------------|--------------|-----------|-------------|---------------|--------------|-----------|-------------|-
E|---------------|--------------|-----------|-------------|---------------|--------------|-----------|-------------|-



E|-
B|-
G|-
D|-
A|-
E|-



E|----9---|-----------|-------|-----7--7-|-
B|----9---|----11--11-|----9--|-----7--7-|-
G|----10--|-----------|-------|-----8--8-|-
D|----11--|----11--11-|----9--|-----9--9-|-
A|----11--|-9---------|-7-----|-----9--9-|-
E|-9------|-----------|-------|-7--------|-



E|-
B|-
G|-
D|-
A|-
E|-



E|-6-6-6-6-6-6-6-6-|-2-2-2-2-2-2-2-2-|-----------------|-----------------|-
B|-6-6-6-6-6-6-6-6-|-2-2-2-2-2-2-2-2-|-6-6-6-6-6-6-6-6-|-6-6-6-6-6-6-6-6-|-
G|-6-6-6-6-6-6-6-6-|-3-3-3-3-3-3-3-3-|-6-6-6-6-6-6-6-6-|-5-5-5-5-5-5-5-5-|-
D|-8-8-8-8-8-8-8-8-|-4-4-4-4-4-4-4-4-|-6-6-6-6-6-6-6-6-|-6-6-6-6-6-6-6-6-|-
A|-8-8-8-8-8-8-8-8-|-4-4-4-4-4-4-4-4-|-4-4-4-4-4-4-4-4-|-4-4-4-4-4-4-4-4-|-
E|-6-6-6-6-6-6-6-6-|-2-2-2-2-2-2-2-2-|-----------------|-----------------|-



E|-------------|-----------|-------------|-----------|-------------|-
B|-------------|-----------|-------------|-----------|-------------|-
G|-------------|-----------|-------------|-----------|-------------|-
D|--------11-8-|-----------|--------11-8-|-----------|-------------|-
A|---8-11------|-8-8-8-9-8-|---8-11------|-8-8-8-9-8-|-------------|-
E|-9-----------|-----------|-9-----------|-----------|-9-----------|-



E|-----------11----------------------------9-----11-----9-------------
B|------9-------9----9-12-11-9--11-----7-----7------7-----7---7---7---
G|-6/10---10------10---11-11-11-11-6/8---8-----8------8-----8---8---8-
D|--------------------------------------------------------------------
A|--------------------------------------------------------------------
E|--------------------------------------------------------------------
http://www.guitartabcreator.com
Guitar Tab Creator is intended to store guitar tab created through the tool. It currently does not support in-line text editing. Any text you place in here will be lost. If you need to comment on your tab, please use the "Tab Notes" section located below.