devotion

(/) Slide Up  (\) Slide Down  (h) Hammer On  (p) Pull Off  (b) Bend (r) Release (v) Vibrato

Intro Riff (2x)


E|--------3--5--7--7--5--3--0--
B|--3--5-----------------------
G|-----------------------------
D|-----------------------------
A|-----------------------------
E|-----------------------------


Solo:



E|--3--3--3--10--0---0--0--0--------------------------3--3--3--10--0---0--0--0--7--7--5--3--3--5--3--0--
B|--5--5--5--12--10--8--5--3--------3--5--3-----------5--5--5--12--10--8--5--3--8--8--5--3--3--5--3--0--
G|----------------------------2--4-----------4--2--0----------------------------------------------------
D|------------------------------------------------------------------------------------------------------
A|------------------------------------------------------------------------------------------------------
E|------------------------------------------------------------------------------------------------------
http://www.guitartabcreator.com
Guitar Tab Creator is intended to store guitar tab created through the tool. It currently does not support in-line text editing. Any text you place in here will be lost. If you need to comment on your tab, please use the "Tab Notes" section located below.