Selve Voi Que Le Speranze - Section II, III (IV section wrong)

(/) Slide Up  (\) Slide Down  (h) Hammer On  (p) Pull Off  (b) Bend (r) Release (v) Vibrato


E|-----0--------------------------0--------------------2----------------------3----------3p2-----
B|--------0-----4--------0-----------0--1--2--------------3-----3----------------3------------3--
G|-----------0-----4--------0-----------------2--------------2-----2-----2p0--------0h2----------
D|--------------------4--------2--------------------0-----------------0--------------------------
A|--------------------------------------0--------0-----------------------------------------------
E|--0--------------------------------------------------------------------------------------------



E|-----------------------------------------------------
B|-----1-----------------1-----0-----------------------
G|--------2-----------0-----2-----2--0-----------------
D|-----------2-----2--------------------4--0--2--4--5--
A|--0-----------3--------------------------------------
E|-----------------------------------------------------



E|-----3--------3--------3--------3--------
B|--------3--------3--------3-----------1--
G|-----------0--------0--------0-----------
D|-----------------------------------------
A|-----------------------------------------
E|--3-----------2-----------1--------------
http://www.guitartabcreator.com
Guitar Tab Creator is intended to store guitar tab created through the tool. It currently does not support in-line text editing. Any text you place in here will be lost. If you need to comment on your tab, please use the "Tab Notes" section located below.