Selve Voi Que Le Speranze - Section I and II

(/) Slide Up  (\) Slide Down  (h) Hammer On  (p) Pull Off  (b) Bend (r) Release (v) Vibrato


E|-----------------------------0--------------------------------------------------------0-----------
B|-----0-----------0--------------0--------0-----------0-----------0-----------0-----------0--------
G|-----------0-----------0-----------0--------0--------------0-----------0--------0-----------0-----
D|--------4-----------4-----------------4--------4--------4-----------4--------------4-----------4--
A|--------------2-----------------------------------0-----------2-----------------------------------
E|--0-----------------------0-----------------------------------------------0-----------------------



E|--------------2--------3/5h0-----------------------------0--------0--------------1--------
B|-----------0-----0------------1-----------0-----------0--------2-----------4--------------
G|--------0-----------0------------2-----------0-----0--------3-----------4-----4-----------
D|-----2------------------------------0--------------------------------4--------------------
A|--3------------------------------------2--------------------------------------------1-----
E|------------------------------------------------0--------------------------------------1--



E|--------
B|--------
G|--------
D|--------
A|--------
E|--------
http://www.guitartabcreator.com
Guitar Tab Creator is intended to store guitar tab created through the tool. It currently does not support in-line text editing. Any text you place in here will be lost. If you need to comment on your tab, please use the "Tab Notes" section located below.