Sweet child Of Mine Solo

(/) Slide Up  (\) Slide Down  (h) Hammer On  (p) Pull Off  (b) Bend (r) Release (v) Vibrato

Stave 1:

E|--17b--17--15--14h15p14------15--14h15p14-------------14---------------------------------------
B|-------------------------17----------------17\16--17------15b--12------------------------------
G|-------------------------------------------------------------------14b----12--11h12------------
D|-------------------------------------------------------------------------------------14--------
A|-----------------------------------------------------------------------------------------------
E|-----------------------------------------------------------------------------------------------

Stave 2:

E|----------------------------------------------------------15b15--
B|--------------13--12h13p12------13b13--13--12--12b12-------------
G|--11--12--14----------------14------------------------14---------
D|-----------------------------------------------------------------
A|-----------------------------------------------------------------
E|-----------------------------------------------------------------

Stave 3:

E|--------------------------------------------------------------
B|--7b7--------7b7-----------------7--7b7------------------7b7--
G|-------9--9-------9--9--8b8b--8----------9---------9--9-------
D|--------------------------------------------10--9-------------
A|--------------------------------------------------------------
E|--------------------------------------------------------------

http://www.guitartabcreator.com
Guitar Tab Creator is intended to store guitar tab created through the tool. It currently does not support in-line text editing. Any text you place in here will be lost. If you need to comment on your tab, please use the "Tab Notes" section located below.