Stay

(/) Slide Up  (\) Slide Down  (h) Hammer On  (p) Pull Off  (b) Bend (r) Release (v) Vibrato
Intro
E|--------------------
B|--1--1--1--1--1--1--
G|--2--0--2--0--2--0-- x2
D|--3--2--3--2--3--2--
A|-----3-----3-----3--
E|--------------------


Verse
E|--------------------3--
B|--1--1--1--1--1--1--3--
G|--2--0--2--0--2--0--0-- x2
D|--3--2--3--2--3--2--0--
A|-----3-----3-----3--2--
E|--------------------3--


Chorus
E|-----------3--
B|--1--1--1--3--
G|--2--0--2--0-- x4
D|--3--2--2--0--
A|-----3-----2--
E|-----------3--


Bridge
E|--------------
B|--------1-----
G|--3--5--2--3-- x2
D|--3--5--2--3--
A|--1--3-----1--
E|--------------


Instrumental
E|----------------3--
B|--1-1--1--1--1--3--
G|--2-2--2--0--2--0-- x2
D|--3/5--3--2--2--0--
A|----------3-----2--
E|----------------3--
http://www.guitartabcreator.com
Guitar Tab Creator is intended to store guitar tab created through the tool. It currently does not support in-line text editing. Any text you place in here will be lost. If you need to comment on your tab, please use the "Tab Notes" section located below.