Loud

(/) Slide Up  (\) Slide Down  (h) Hammer On  (p) Pull Off  (b) Bend (r) Release (v) Vibrato
Intro
E|------------------
B|------------------
G|--9--9--9--9--8h-9
D|--9--9--9--9--9--9
A|--7--9-----0--0--0
E|--------9---------


Verse
E|------------------------
B|------------------------
G|--9--9--8h-9--9--9--8h-9
D|--9--9--9--9--9--9--9--9
A|--7--------------0--0--0
E|-----9--9--9--7---------


Pre-Chorus
E|---------------
B|---------------
G|--9--9--9--8h-9
D|--9--9--9--9--9
A|--------0--0--0
E|--7--9---------


Chorus
E|--------------------
B|--5--5--5--5--5--5--
G|--4--4--4--4--4--4--
D|--2--2--------2--2--
A|--------2--4--------
E|--4--0--------4--0--


End
E|-----------------
B|--5--4--5--4-----
G|--4--4--4--4--1--
D|--------------2--
A|--2--2--2--2--2--
E|-----------------
http://www.guitartabcreator.com
Guitar Tab Creator is intended to store guitar tab created through the tool. It currently does not support in-line text editing. Any text you place in here will be lost. If you need to comment on your tab, please use the "Tab Notes" section located below.