Bottem of the sea (old version)

(/) Slide Up  (\) Slide Down  (h) Hammer On  (p) Pull Off  (b) Bend (r) Release (v) Vibrato


E|-----------
B|-----------
G|--9--9--9-- x2
D|--9--9--9--
A|--7--0-----
E|--------7--



E|--------------
B|--------------
G|--9--9--9--9--
D|--9--9--9--9--
A|-----0--7-----
E|--9--------7--



E|--1-----------
B|--3--1--------
G|--2-----3-----
D|-----2--3--3-- x2
A|-----3--1--3--
E|-----------1--



E|--------
B|--------
G|--3--5--
D|--3--5-- x2
A|--1--3--
E|--------
http://www.guitartabcreator.com
Guitar Tab Creator is intended to store guitar tab created through the tool. It currently does not support in-line text editing. Any text you place in here will be lost. If you need to comment on your tab, please use the "Tab Notes" section located below.