Peace - A Theme (King Crimson)

(/) Slide Up  (\) Slide Down  (h) Hammer On  (p) Pull Off  (b) Bend (r) Release (v) Vibrato
E|----------------0--------------------------|----------------0----7---------------------|--
B|--7----5h7p5\2--0----2/5/7--7----7\5\2--2--|--7----5h7p5\2--0----7--10----7h10p7\5--7--|--
G|--6-------------1-----------6-----------2--|--6-------------1----7--9---------------6--|--
D|--4-------------------------7-----------2--|--7------------------0--0---------------7--|--
A|--0-------------------------5-----------0--|--5------------------7--9---------------5--|--
E|----------------4--------------------------|----------------4r0------------------------|--



E|--------2-------------------------------------------------------0--|--
B|--2-----2-------2-----2-----2-----2-----2-----2-----2-----------2--|--
G|--2--4--2-------4-----4-----4-----4-----4-----4-----4-----------1--|--
D|--2--2--2----------------------------------------3-----------2-----|--
A|--0--0--0----------4-----4-----------4-----4-----------4--0--------|--
E|-------------4-----------------4-----------------------------------|--



E|---------7--9--12--9-----------------0-----|--
B|--7--10--------9------12--9--10------0-----|--
G|--7------------9-------------11------7-----|--
D|--7------------9-------------11------7--6--|--
A|--9------------11--------------------------|--
E|--7------------9-------------10------7-----|--



E|---------0-------|--
B|--7------0-------|--
G|--6------2-------|--
D|--7------2--1----|--
A|--5------0-------|--
E|---------2-------|--
http://www.guitartabcreator.com
Guitar Tab Creator is intended to store guitar tab created through the tool. It currently does not support in-line text editing. Any text you place in here will be lost. If you need to comment on your tab, please use the "Tab Notes" section located below.