Roxanne

(/) Slide Up  (\) Slide Down  (h) Hammer On  (p) Pull Off  (b) Bend (r) Release (v) Vibrato

E|-----------------------------------------------------------------------3--5--1/3--------------
B|--3--------3--3--------3--8--------8--6--------6--4--------4-----------1--3-------3--------3--
G|--3--------3--2--------2--8--------8--5--------5--3--------3--3--------3--5-------3--------3--
D|--5-----------3-----3-----8-----8-----7-----7-----5-----5-----1--------1--3-------5--------5--
A|--5-----5-----------------6--6--------5--5--------3--3--------3-----3-----5-------------5-----
E|--3--3--------1--1--------------------------------------------1--1--------3-------3--3--------



E|--------1--3--3--1-----5-------------------------------------3-----3--------1/3--3p1--8/9--
B|--3-----1-----------8-----8--8/10--------6--------6--4--3/4-----6-----------1--------------
G|--2-----2-----------7--------------------5--------5--3--3-------------------3---------0----
D|--3-----3-----------8-----------------8--7-----7-----5--5-------------------1--------------
A|--------------------6--------------6-----5--5--------3--3-------------------3--------------
E|--1--1----------------------------------------------------------------1--1-----------------



E|--8--6--------------6/8--3--------3--3-----1--3--3p1--3--3-----3-----3--3-----3--6/8--3-----
B|--------8--8--6--8-------4--------4--1-----1----------3--3--6--3--6--3--3-----3-------4-----
G|-------------------------3--------3--3-----3----------5--5-----5-----5--5-----5-------3-----
D|-------------------------5-----5-----1-----1----------3--------3-----3--3-----3-------5-----
A|-------------------------3--3--------3----------------5--------5-----5--5-------------3--3--
E|-------------------------------------1--1-------------3--------3-----3--3--3----------------



E|-----3--3-----1--3--3--1-----
B|-----4--1-----1--------------
G|-----3--3-----3-----------5--
D|--5-----1-----1-----------3--
A|--------3-----------------5--
E|--------1--1--------------3--
http://www.guitartabcreator.com
Guitar Tab Creator is intended to store guitar tab created through the tool. It currently does not support in-line text editing. Any text you place in here will be lost. If you need to comment on your tab, please use the "Tab Notes" section located below.