I got it bad

(/) Slide Up  (\) Slide Down  (h) Hammer On  (p) Pull Off  (b) Bend (r) Release (v) Vibrato
E|------10-8-------------------------5-------5---------------------------3--------5-------5---8---5-
B|--------------5---6---8-6------------6-8---6-------------------------3---2------3-6-8---6---5---2-
G|------9--7----7---6---5-----5---4----------7-----5-----4-----3-----2-----2---7----------6---5---3-
D|------8--7----6---5---7-----5---3----------7---4-----3-----2-----1-----------7--3-----------------
A|-9-10---------------5--------------------5--------------------------------------------6---5---4---
E|------------6---5---------4---3--------------4-----3-----2-----1-----------6----------------------



E|---1----------------------5-8-6-5-----------------------------------------0--------
B|---3--------------1---3-6---------8-6-----------------------------3---5------------
G|---2------------2---3-----------------7-5-----------------5---6---3---4---3--------
D|------------0-3---------------------------8-7-5-----------5---4---3----------9--10-
A|------0-3-1-------------------------------------8-5-----------------4--------11-12-
E|-1--------------------------------------------------8-6-5---4---3-------2----------
http://www.guitartabcreator.com
Guitar Tab Creator is intended to store guitar tab created through the tool. It currently does not support in-line text editing. Any text you place in here will be lost. If you need to comment on your tab, please use the "Tab Notes" section located below.