You Love Is Like An Ocean

(/) Slide Up  (\) Slide Down  (h) Hammer On  (p) Pull Off  (b) Bend (r) Release (v) Vibrato
E|-------------------------------------------------------------
B|-------------------------------------------------------------
G|------11------12--11------11------14--12--11-----------------
D|--12------12----------12------12--------------12---------12--
A|--------------------------------------------------12/14------
E|-------------------------------------------------------------



E|--14/15--14p12--------------14/15--14p12-------------------------
B|----------------15--12--------------------15--12-----------------
G|------------------------14------------------------14-------------
D|-------------------------------------------------------------12--
A|------------------------------------------------------12/14------
E|-----------------------------------------------------------------



E|-----
B|-----
G|-----
D|-----
A|--1--
E|-----



E|-----------2-----------------------0-----------------------3--------------
B|-----3--------3--------------2--------2--------------3--------3-----------
G|--------4--------4--------------2--------2--------------0--------0--------
D|--------------------4-----------------------2-----------------------0-----
A|--2--------------------2--0--------------------0-----------------------2--
E|--------------------------------------------------3-----------------------



E|-----------2-----------
B|-----2--------2--------
G|--------2--------2-----
D|--------------------2--
A|--0--------------------
E|-----------------------



E|-----
B|-----
G|-----
D|--0--
A|-----
E|-----
http://www.guitartabcreator.com
Guitar Tab Creator is intended to store guitar tab created through the tool. It currently does not support in-line text editing. Any text you place in here will be lost. If you need to comment on your tab, please use the "Tab Notes" section located below.