Testing your call

(/) Slide Up  (\) Slide Down  (h) Hammer On  (p) Pull Off  (b) Bend (r) Release (v) Vibrato

E|--------------------------------------------------
B|--------------------------------------------------
G|--------0-----------0-----------0-----------0-----
D|-----0-----0-----4-----4-----5-----5-----5-----5--
A|--3-----------5-----------7-----------7-----------
E|--------------------------------------------------



E|--------------------------------------------------
B|--------------------------------------------------
G|--------0-----------0-----------0-----------0-----
D|-----0-----0-----4-----4-----5-----5-----5-----5--
A|--3-----------5-----------7-----------7-----------
E|--------------------------------------------------



E|--------------------------------------------------
B|--------------------------------------------------
G|--------0-----------0-----------0-----------0-----
D|-----0-----0-----4-----4-----5-----5-----5-----5--
A|--3-----------5-----------7-----------7-----------
E|--------------------------------------------------



E|--------------------------------------------------
B|--------------------------------------------------
G|--------0-----------0-----------0-----------0-----
D|-----0-----0-----4-----4-----5-----5-----5-----5--
A|--3-----------5-----------7-----------7-----------
E|--------------------------------------------------



E|--------------------------------------------------------------------------------------------------
B|--------------------------------------------------------------------------------------------------
G|--------0-----------0-----------0-----------0-----------0-----------0-----------0-----------0-----
D|-----0-----0-----0-----0-----4-----4-----4-----4-----5-----5-----5-----5-----0-----0-----0-----0--
A|--------------------------5-----------5-----------7-----------7-----------3-----------3-----------
E|--3-----------3-----------------------------------------------------------------------------------
http://www.guitartabcreator.com
Guitar Tab Creator is intended to store guitar tab created through the tool. It currently does not support in-line text editing. Any text you place in here will be lost. If you need to comment on your tab, please use the "Tab Notes" section located below.