first attempt

(/) Slide Up  (\) Slide Down  (h) Hammer On  (p) Pull Off  (b) Bend (r) Release (v) Vibrato

E|--------------------------------------------------------------------------------|-----
B|--------------------------------------------------------------------------------|-----
G|------------------10h11------------------10h11----------------------------------|-----
D|--------7/8--------------------7/8--------------------7/8-----------------------|-----
A|--5--5-------4b4---------5--5-------4b4---------5--5-------2b2------------------|-----
E|----------------------------------------------------------------11p10--7--7--0--|-----



E|-----------------------------------------------------|--
B|-----------------------------------------------------|--
G|-----------------------------------------------------|--
D|--------------------9--------------------------------|--
A|--0--5--5--5--5--5-----10--9--0--5--5--5--5--5--7h8--|--
E|-----------------------------------------------------|--
http://www.guitartabcreator.com
Guitar Tab Creator is intended to store guitar tab created through the tool. It currently does not support in-line text editing. Any text you place in here will be lost. If you need to comment on your tab, please use the "Tab Notes" section located below.