MOBY DICK SOUND ALIKE. WRITTEN BY ZACH MCDONNELL ALL COPYRIGHTS ARE RSERVED!!!!!!!!

(/) Slide Up  (\) Slide Down  (h) Hammer On  (p) Pull Off  (b) Bend (r) Release (v) Vibrato
E|-------------------------------------
B|-------------------------------------
G|-------------------------------------
D|-------------5-----------------------
A|-------5--7-----7--5--7--5-----5--7--
E|--3/7-----------------------7--------



E|-----------------------------------
B|-----------------------------------
G|-----------------------------------
D|-------------5-----------5--7b7r5--
A|-------5--7-----7--5--7------------
E|--3/7------------------------------



E|-------------------------------------
B|-------------------------------------
G|-------------------------------------
D|-------------5-----------------------
A|-------5--7-----7--5--7--5-----5--7--
E|--3/7-----------------------7--------



E|----------------------------------
B|----------------------------------
G|----------------------------------
D|-------------5--------------------
A|-------5--7-----7--5--------------
E|--3/7-----------------7--5--3--0--



E|----------------------------------------
B|----------------------------------------
G|----------------------------------------
D|-------------5--5--------------------5--
A|-------5--7--------7--5--5--7--5--7-----
E|--3/7-----------------------------------



E|---------------------------------------
B|---------------------------------------
G|---------------------------------------
D|-------------5--5--------------5--7b5--
A|-------5--7--------7--5--5--7----------
E|--3/7----------------------------------



E|---------------------------------------------
B|---------------------------------------------
G|-------------------5--7r5--------------------
D|-------------5--7----------5--7--------------
A|-------5--7----------------------5-----5--7--
E|--3/7-------------------------------7--------



E|------------------------------------
B|------------------------------------
G|------------------------------------
D|-------------5-----------------5--5b
A|-------5--7-----7--5--5--5--7-------
E|--3/7-------------------------------



E|-------------------------------
B|-------------------------------
G|-------------------------------
D|-------------5-----------------
A|-------5--7-----7--7--5--5--7--
E|--3/7--------------------------



E|-------------------------------------
B|-------------------------------------
G|-------------------------------------
D|-------------5-----------------------
A|-------5--7-----7--5--7--------------
E|--3/7--------------------7--5--3--0--



E|------------------------
B|------------------------
G|------------------------
D|-------------5--7b7r7b7r
A|-------5--7-------------
E|--3/7-------------------



E|-------------------------------------
B|-------------------------------------
G|-------------------------------------
D|-------------5--------------------5--
A|-------5--7-----7--5--7--5-----5-----
E|--3/7-----------------------7--------



E|---------------------------------
B|---------------------------------
G|---------------------------------
D|-------------5-------------------
A|-------5--7-----5--7-------------
E|--3/7-----------------7--5--3b0--
http://www.guitartabcreator.com
Guitar Tab Creator is intended to store guitar tab created through the tool. It currently does not support in-line text editing. Any text you place in here will be lost. If you need to comment on your tab, please use the "Tab Notes" section located below.