Riff 3

(/) Slide Up  (\) Slide Down  (h) Hammer On  (p) Pull Off  (b) Bend (r) Release (v) Vibrato


E|-----------------------------------------------------------------
B|-----------------------------------------------------------------
G|---------------------------------------------------------4-5-4---
D|-------7-7-7-3-3-3-5-5-5-2-3-2---------7-7-7-3-3-3-5-5-5-------5-
A|-5-5-5-------------------------3-5-5-5---------------------------
E|-----------------------------------------------------------------



E|-----------------------------------------------------------------
B|-----------------------------------------------------------------
G|-----------------------------------------------------------------
D|-------7-7-7-3-3-3-5-5-5-2-3-2---------3-3-3-----------5-5-5-----
A|-5-5-5-------------------------3-1-1-1-------1-1-3-3-3-------3-3-
E|-----------------------------------------------------------------
http://www.guitartabcreator.com
Guitar Tab Creator is intended to store guitar tab created through the tool. It currently does not support in-line text editing. Any text you place in here will be lost. If you need to comment on your tab, please use the "Tab Notes" section located below.