Thou Who Shall Not Be Named

(/) Slide Up  (\) Slide Down  (h) Hammer On  (p) Pull Off  (b) Bend (r) Release (v) Vibrato
E|-----------------------------------------------------------------------------------------
B|-----------------------------------------------------------------------------------------
G|-----------------------------------------------------------------------------------------
D|-----------------------------------------------------------------------------------------
A|--------------7--5--7--------------7--5--7--------------7--5--7--------------9--8--8--7--
E|--0--0--0--0--5--3--5--0--0--0--0--5--3--5--0--0--0--0--5--3--5--0--0--0--0--7--6--6--5--



E|-----------------------|--------------------------------------------------|--
B|-----------------------|--------------------------------------------------|--
G|-----------------------|--------------------------------------------------|--
D|-----------------------|--------5--4--------4-----------------------------|--
A|-----------3-----------|--------3--2--------2--4--------4--6--------------|--
E|--0--3--5-----5--3--5--|--0--0--------0--0-----2--0--0--2--4--0--0--0--0--|--
http://www.guitartabcreator.com
Guitar Tab Creator is intended to store guitar tab created through the tool. It currently does not support in-line text editing. Any text you place in here will be lost. If you need to comment on your tab, please use the "Tab Notes" section located below.