Composition 2 (Melody)

(/) Slide Up  (\) Slide Down  (h) Hammer On  (p) Pull Off  (b) Bend (r) Release (v) Vibrato
E|----------7--10---------7--7--|----------7--10----------------
B|-------8---------8--10--------|-------8---------8--10--8--8v--
G|--8/9-------------------------|--8/9--------------------------
D|------------------------------|-------------------------------
A|------------------------------|-------------------------------
E|------------------------------|-------------------------------



E|--------5--7--8--7--5--5--|--------5--7--8--7--5------
B|-----5--------------------|-----5-----------------4v--
G|--5-----------------------|--5------------------------
D|--------------------------|---------------------------
A|--------------------------|---------------------------
E|--------------------------|---------------------------



E|-------------------------------------|---------------------------------
B|-------------------------------------|---------------------------------
G|-------------------------------------|---------------------------------
D|-------------------------------------|---------------------------------
A|--5p3----------------3--3h5p3--------|--5p3---------------3--3/5-------
E|-------6--3----3--6------------6--3--|-------6--3----3h6----------6\3--



E|--8h10p8-------------------8--8b10b8--------|--10--8-------------------8--10--8----------
B|----------11--8v----8--11-------------11\8--|---------11--8v----8--11------------11v--v--
G|--------------------------------------------|--------------------------------------------
D|--------------------------------------------|--------------------------------------------
A|--------------------------------------------|--------------------------------------------
E|--------------------------------------------|--------------------------------------------
http://www.guitartabcreator.com
Guitar Tab Creator is intended to store guitar tab created through the tool. It currently does not support in-line text editing. Any text you place in here will be lost. If you need to comment on your tab, please use the "Tab Notes" section located below.