Composition 2

(/) Slide Up  (\) Slide Down  (h) Hammer On  (p) Pull Off  (b) Bend (r) Release (v) Vibrato

E|-----------------------------------
B|-----7-----7--7-----7--7-----7-----
G|-----7-----7--7-----7--7-----7-----
D|-----5-----5--5-----5--5-----5-----
A|--7--------------7-----------------
E|--------7-----------------7--------



E|--------------------------------
B|-----5-----5--5-----5--5-----5--
G|-----7-----7--7-----7--7-----7--
D|-----7-----7--7-----6--6-----6--
A|--------------------------------
E|--7-----7--------6--------6-----



E|--------------------------------
B|-----5-----5--5-----5--5-----5--
G|-----5-----5--5-----5--5-----5--
D|-----5-----5--5-----5--5-----5--
A|--------------------------------
E|--5-----5--------5--------5-----



E|--------------------------------
B|-----8-----8--8-----8--8-----8--
G|-----8-----8--8-----8--8-----8--
D|-----7-----7--7-----7--7-----7--
A|--------------------------------
E|--7-----7--------7--------7-----



E|-----------------------------------
B|-----2-----2--2-----2--2-----2-----
G|-----2-----2--2-----2--2-----2-----
D|-----0-----0--0-----0--0-----0-----
A|--2--------------2-----------------
E|--------2-----------------2--------



E|--------------------------------
B|-----9-----9--9-----9--9-----9--
G|-----9-----9--9-----9--9-----9--
D|-----7-----7--7-----7--7-----7--
A|--9--------------9--------------
E|--------9-----------------9-----



E|--------------------------------
B|-----4-----4--4-----4--4-----4--
G|-----4-----4--4-----4--4-----4--
D|-----2-----2--2-----2--2-----2--
A|--4--------------4--------------
E|--------4-----------------4-----



E|------------------------------------------
B|------11------11--11------11--11------11--
G|------11------11--11------11--11------11--
D|------9-------9---9-------9---9-------9---
A|--11------------------11------------------
E|----------11----------------------11------



E|------------------------------------------------------------------
B|-----6-----6--6-----6--6-----6---------7-----7--7-----7--7-----7--
G|-----6-----6--6-----6--6-----6---------7-----7--7-----7--7-----7--
D|-----4-----4--4-----4--4-----4---------5-----5--5-----5--5-----5--
A|--6--------------6------------------7--------------7--------------
E|--------6-----------------6---------------7-----------------7-----



E|--------------------------------
B|-----3-----3--3-----3--3-----3--
G|-----4-----4--4-----4--4-----4--
D|-----4-----4--4-----4--4-----4--
A|--------------------------------
E|--3-----3--------3--------3-----



E|--------------------------------
B|-----5-----5--5-----5--5-----5--
G|-----4-----4--4-----4--4-----4--
D|-----5-----5--5-----5--5-----5--
A|--3-----3--------3--------3-----
E|--------------------------------



E|--------------------------------
B|-----3-----3--3-----3--3-----3--
G|-----5-----5--5-----5--5-----5--
D|-----4-----4--4-----4--4-----4--
A|--5-----5--------5--------5-----
E|--------------------------------
http://www.guitartabcreator.com
Guitar Tab Creator is intended to store guitar tab created through the tool. It currently does not support in-line text editing. Any text you place in here will be lost. If you need to comment on your tab, please use the "Tab Notes" section located below.