Composition-1 (Melody)

(/) Slide Up  (\) Slide Down  (h) Hammer On  (p) Pull Off  (b) Bend (r) Release (v) Vibrato

E|--------------------------------------------------------
B|--------------------------------------------------------
G|--4h5--4-------------------------4h5--4-----------------
D|----------7----5--7/9----7--5------------7----5\2-------
A|--------------------------------------------------------
E|--------------------------------------------------------



E|--7h8--7-----------------------------7--7h8--7---------------
B|----------10----8--10/12----10--8---------------10v----8\5v--
G|-------------------------------------------------------------
D|-------------------------------------------------------------
A|-------------------------------------------------------------
E|-------------------------------------------------------------
http://www.guitartabcreator.com
Guitar Tab Creator is intended to store guitar tab created through the tool. It currently does not support in-line text editing. Any text you place in here will be lost. If you need to comment on your tab, please use the "Tab Notes" section located below.