Composition 1

(/) Slide Up  (\) Slide Down  (h) Hammer On  (p) Pull Off  (b) Bend (r) Release (v) Vibrato


E|--------------------------------------------------------------------------------------------
B|-----------0-----------0-----------0-------0-------------0-----------0-----------1----1-----
G|--------0-----------2-----------0---------------------0-----------2-----------0-------0-----
D|-----4-----------0-----------2----------2----------4-----------0-----------2----------2-----
A|------------------------------------------------------------------------3-------------3-----
E|--3-----------2-----------0-------------------2/3-----------2-------------------------------



E|-------------------------------------------------------------------------------------------------
B|-----------0-----------0-----------0-------0-------------0-----------0-----------0------1--1--0--
G|--------0-----------2-----------0---------------------0-----------2-----------0------------------
D|-----4-----------0-----------2----------2----------4-----------0-----------2---------------------
A|------------------------------------------------------------------------3------------------------
E|--3-----------2-----------0-------------------2/3-----------2------------------------------------



E|------------------------------------------------------------------------
B|-------0-------0-------0----0---------0-------0-------1----1----------3-
G|-----0-------2-------0--------------0-------2-------0---------------0---
D|---4-------0-------2------2-------4-------0-------2------2--------4-----
A|------------------------------------------------3-------------3/5-------
E|-3-------2-------0------------2/3-------2-------------------------------



E|--------------------------------------------------------------
B|-----------3----3---------1-------1-------1-------1---------3-
G|---------0--------0-----0-------0-------2-----------------0---
D|-------4------4-------2-------2-------2---------2-------4-----
A|-0-1-2--------------3-------2-------0---------0-----3/5-------
E|--------------------------------------------------------------



E|-----------------------------------3---------------------------------------------------
B|-----------3----3-----------1----1-1-------1-1-1---------1---1-----------3-------------
G|---------0--------0-------0----0---2---2-2-------------2-------2-------0---------------
D|-------4------4---------2----------3-3-----------3---2-----2---------4-------0---------
A|-0-1/2--------------3-3--------3-------------------0-------------3/5-----------3-2-0---
E|-----------------------------------1-------------------------------------------------3-



E|-x-
B|-4-
G|-4-
D|-2-
A|-4-
E|-x-



E|-2-
B|-2-
G|-2-
D|-2-
A|-4-
E|-2-



E|-0-
B|-2-
G|-1-
D|-2-
A|-0-
E|---



E|-0-
B|-0-
G|-1-
D|-2-
A|-2-
E|-0-



E|-0-
B|-0-
G|-2-
D|-1-
A|-2-
E|-x-



E|----------------------------------------------------------------
B|--------0--0----------0--0----------3--3--------3-------0-------
G|--------0--0----------2--2----------0--0--------0-------2-------
D|--------2--2----------2--2----------0--0--------0-------0-------
A|----------------------------------------------------------------
E|--0--0--------0/2--2--------2/3--3--------3--3-----3p2-----2r0--
http://www.guitartabcreator.com
Guitar Tab Creator is intended to store guitar tab created through the tool. It currently does not support in-line text editing. Any text you place in here will be lost. If you need to comment on your tab, please use the "Tab Notes" section located below.