004 - Shoegazy song

(/) Slide Up  (\) Slide Down  (h) Hammer On  (p) Pull Off  (b) Bend (r) Release (v) Vibrato


E|-----------------------------------------------------------------------------------------------
B|-----------------------------------------------------------------------------------------------
G|--12--14--12--11------11----------------------------------------12--14--12--11------11---------
D|------------------14------12----------------------------------------------------14------12-----
A|------------------------------14----14--14--14--14--14--14--14---------------------------------
E|-----------------------------------------------------------------------------------------------



E|------------------------------------
B|--12----12--12--12--12--12--12--12--
G|------------------------------------
D|------------------------------------
A|------------------------------------
E|------------------------------------



E|------------------------------------------------------
B|------------------------------------------------------
G|--12h14p12--11h12p11----------------------------------
D|----------------------12----9----9--9--9--9--9--9--9--
A|------------------------------------------------------
E|------------------------------------------------------



E|--------------------------------------------------------
B|------------------------------12----12--12--12--12--12--
G|--12h14p12----11h12p11----------------------------------
D|------------------------12------------------------------
A|--------------------------------------------------------
E|--------------------------------------------------------



E|--
B|--
G|--
D|--
A|--
E|--
http://www.guitartabcreator.com
Guitar Tab Creator is intended to store guitar tab created through the tool. It currently does not support in-line text editing. Any text you place in here will be lost. If you need to comment on your tab, please use the "Tab Notes" section located below.