003 - Chorus Progression

(/) Slide Up  (\) Slide Down  (h) Hammer On  (p) Pull Off  (b) Bend (r) Release (v) Vibrato

CHORD PROGRESSION


E|--------------
B|--------------
G|--------------
D|--6--6--6--6--
A|--7--7--7--7--
E|--5--0--9--7--


PICKING

E|------------------------------------------------------------------------------------------------
B|------------------------------------------------------------------------------------------------
G|------------------------------------------------------------------------------------------------
D|--------6--------------6-------------6--------------6-------------6--------------6--------------
A|-----7-----7--------7-----7-------7-----7--------7-----7-------7-----7--------7-----7-----7-----
E|--5-----------5--5-------------0-----------0--0-------------9-----------9--9-----------7--------



E|--------------------
B|--------------------
G|--------------------
D|--6-----------9--6--
A|-----7-----7--------
E|--------7-----------
http://www.guitartabcreator.com
Guitar Tab Creator is intended to store guitar tab created through the tool. It currently does not support in-line text editing. Any text you place in here will be lost. If you need to comment on your tab, please use the "Tab Notes" section located below.