The Ears Dance Song

(/) Slide Up  (\) Slide Down  (h) Hammer On  (p) Pull Off  (b) Bend (r) Release (v) Vibrato


Intro/verse 1 (repeat six times)

E|-----------------------------------------------------------------------------
B|-----------------------------------------------------------------------------
G|----------------9--11(eleventh fret)---------------------------------------------------------
D|---------------------------------------------------------------------------
A|0---00---0---007--9-----------------------------------------------------------
E|-----------------------------------------------------------------------------

Other Verse Thing(Repeat four times)

E|-----------------------------------------------------------------------------
B|-----------------------------------------------------------------------------
G|-----------------------------------------------------------------------------
D|-----------------7--9------------------------------------------------------
A|----------------------------------------------------------------------
E|3---33---3---335--7------------------------------------------------------------


(Repeat Verse 1 Four Times)

(Repeat the other verse thing four times)


Chorus (Repeat Twice)


|-----------------------------------------------------------------------------
B|-----------------------------------------------------------------------------
G|----------------7h97----------------------7h97-------------------------------------
D|--------------------97--------------X44-------97---------------------------
A|00---X55---X77-----------00---X55--------------------------------------------
E|-----------------------------------------------------------------------

End of Chorus Fill

E|-----------------------------------------------------------------------------
B|-----------------------------------------------------------------------------
G|9h119-------9h119--------------------------------------------------------------------
D|-----119---------119--------------------------------------------------------
A|--------11----------119--------------------------------------------------
E|-----------------------11\-----------------------------------------------


Verse 2 (Repeat Verse 1 Four Times)

Other Verse Thing (Repeat Four Times)

Chorus (Repeat Twice)

End of Chorus Fill

Bridge

E|-----------------------------------------------------------------------------
B|-----------------------------------------------------------------------------
G|-----------------------------------------------------------------------------
D|/7~-7\----------------------------------------------------------------------
A|----------------------------------------------------------------------
E|-----------------------------------------------------------------------

(I forget how many times this part repeats, just listen to the track I guess)

E|-----------------------------------------------------------------------------
B|-----------------------------------------------------------------------------
G|-----------------------------------------------------------------------------
D|/7-5-4-222-/77554422--------------------------------------------------------------
A|----------------------------------------------------------------------
E|-----------------------------------------------------------------------


Chorus Until The End




Guitar Tab Creator is intended to store guitar tab created through the tool. It currently does not support in-line text editing. Any text you place in here will be lost. If you need to comment on your tab, please use the "Tab Notes" section located below.