partia chórku (powtarzana dwa razy)

(/) Slide Up  (\) Slide Down  (h) Hammer On  (p) Pull Off  (b) Bend (r) Release (v) Vibrato


E|--5-----------------------------------5--5--10--10--13--13--10--5-----------------------------
B|-----6--8--6--------6--6--8--6--8--6-------------------------------6--8--6--------6--6--8-----
G|--------------7--7----------------------------------------------------------7--7--------------
D|----------------------------------------------------------------------------------------------
A|----------------------------------------------------------------------------------------------
E|----------------------------------------------------------------------------------------------



E|-----------------
B|--6--8--6--------
G|-----------7--7--
D|-----------------
A|-----------------
E|-----------------
http://www.guitartabcreator.com
Guitar Tab Creator is intended to store guitar tab created through the tool. It currently does not support in-line text editing. Any text you place in here will be lost. If you need to comment on your tab, please use the "Tab Notes" section located below.