sng.vrz.n1.

(/) Slide Up  (\) Slide Down  (h) Hammer On  (p) Pull Off  (b) Bend (r) Release (v) Vibrato
E|-------------|-------------|-----0-3-----|-----0-1-----|-
B|-----0-1-----|-----0-1-----|-------------|---------3-0-|-
G|---2---------|---------0---|-------------|---2---------|-
D|-------------|---2-------2-|-------------|-0-----------|-
A|-0-----------|-3-----------|---2---------|-------------|-
E|-------------|-------------|-3-----------|-------------|-



E|-------------|-------------|-----3-0-----|-----0-1-----|-
B|-----1-0-----|-----0-1-----|-------------|---------3-0-|-
G|---2---------|---------0---|-------------|---2---------|-
D|-------------|---2-------2-|-------------|-0-----------|-
A|-0-----------|-3-----------|---2---------|-------------|-
E|-------------|-------------|-3-----------|-------------|-



E|-------------|-------------|-----0-3-----|-----1-0-----|-
B|-----0-1-----|-----1-0-----|-------------|---------3-0-|-
G|---2---------|---------0---|-------------|---2---------|-
D|-------------|---2-------2-|-------------|-0-----------|-
A|-0-----------|-3-----------|---2---------|-------------|-
E|-------------|-------------|-3-----------|-------------|-



E|-------------|-------------|-----0-3-----|-----1-0-----|-------------|-
B|-----1-0-----|-----1-0-----|-------------|---------3-0-|-------------|-
G|---2---------|---------0---|-------------|---2---------|-------------|-
D|-------------|---2-------2-|-------------|-0-----------|-------------|-
A|-0-----------|-3-----------|---2---------|-------------|-0-----------|-
E|-------------|-------------|-3-----------|-------------|-------------|-



E|--0----0--0----0----0----0--0--0--0--0--|--0----0--0----0----0----0--0--0--0--0--|--
B|--1----1--1----1----1----1--1--1--1--1--|--1----1--1----1----1----1--1--1--1--1--|--
G|--2----2--2----2----2----2--2--2--2--2--|--0----0--0----0----0----0--0--0--0--0--|--
D|--2----2--2----2----2----2--2--2--2--2--|--2----2--2----2----2----2--2--2--2--2--|--
A|--0----0--0----0----0----0--0--0--0--0--|--3----3--3----3----3----3--3--3--3--3--|--
E|----------------------------------------|----------------------------------------|--



E|--1----1--1----1----1----1--1--1--1--1--|--1----1--1----1----1----1--1--1--0--0--|--
B|--0----0--0----0----0----0--0--0--0--0--|--3----3--3----3----3----3--3--3--0--0--|--
G|--0----0--0----0----0----0--0--0--0--0--|--2----2--2----2----2----2--2--2--0--0--|--
D|--0----0--0----0----0----0--0--0--0--0--|--0----0--0----0----0----0--0--0--2--2--|--
A|--2----2--2----2----2----2--2--2--2--2--|----------------------------------2--2--|--
E|--3----3--3----3----3----3--3--3--3--3--|----------------------------------0--0--|--
http://www.guitartabcreator.com
Guitar Tab Creator is intended to store guitar tab created through the tool. It currently does not support in-line text editing. Any text you place in here will be lost. If you need to comment on your tab, please use the "Tab Notes" section located below.