1000 hours with you

(/) Slide Up  (\) Slide Down  (h) Hammer On  (p) Pull Off  (b) Bend (r) Release (v) Vibrato


E|---------------------------------------------------------------------------------------------
B|---------------------------------------------------------------------------------------------
G|--12----------12----------12------12----------12----------12------9--------9--------9--------
D|------10--10------10--10------10------10--10------10--10------10-----7--7-----7--7-----7-----
A|---------------------------------------------------------------------------------------------
E|---------------------------------------------------------------------------------------------



E|-----------------------------------------------------------------------------------------
B|-----------------------------------------------------------------------------------------
G|--9--------9--------9-----5--------5--------5-----7--------7--------7-----12-------------
D|-----7--7-----7--7-----7-----3--3-----3--3-----3-----5--5-----5--5-----5------10--10-----
A|-----------------------------------------------------------------------------------------
E|-----------------------------------------------------------------------------------------



E|------------------------------------------------------------------------------------------
B|------------------------------------------------------------------------------------------
G|--12----------12------12----------12----------12------9--------9--------9-----9-----------
D|------10--10------10------10--10------10--10------10-----7--7-----7--7-----7-----7--7-----
A|------------------------------------------------------------------------------------------
E|------------------------------------------------------------------------------------------



E|-----------------------------------------------------------------
B|-----------------------------------------------------------------
G|--9--------9-----5--------5--------5-----7--------7--------7-----
D|-----7--7-----7-----3--3-----3--3-----3-----5--5-----5--5-----5--
A|-----------------------------------------------------------------
E|-----------------------------------------------------------------



E|-------------------------------------------------------------------------------------
B|-------------------------------------------------------------------------------------
G|--12----------12----------12------12----------12----------12------12----------12-----
D|------10--10------10--10------10------10--10------10--10------10------10--10---------
A|-------------------------------------------------------------------------------------
E|-------------------------------------------------------------------------------------



E|-------------------------
B|-------------------------
G|----------12-------------
D|--10--10------10--10-----
A|-------------------------
E|-------------------------



E|-------------------------------------------------------------------
B|-------------------------------------------------------------------
G|--5--4--2--------------2------5--4--2---------------------5--7--5--
D|-----------5--3--2--3-----5v-----------5--3--2--3--5--3v-----------
A|-------------------------------------------------------------------
E|-------------------------------------------------------------------



E|-----------------------------------------------------------------------------------
B|-----5-----6-----5--------5-----6-----5--------5-----6-----5--------3-----5--3--3--
G|--5-----5-----5-----5--5-----5-----5-----5--5-----5-----5-----5--5-----5-----------
D|-----------------------------------------------------------------------------------
A|-----------------------------------------------------------------------------------
E|-----------------------------------------------------------------------------------



E|-----------------------------------------------
B|-----------------------------------------------
G|--------5-----9--9-----7-----7-----5-----7-----
D|--3--3-----3--------7-----5-----5-----5-----5--
A|-----------------------------------------------
E|-----------------------------------------------



E|----------------------------------------------------------------------------------------
B|----------------------------------------------------------------------------------------
G|-----9--10--9-----7--9--7-----5--7--5-----7--9--7-----9--10--9--7--9-----7--9--7--5--7--
D|--7------------5-----------3-----------5-----------7------------------5-----------------
A|----------------------------------------------------------------------------------------
E|----------------------------------------------------------------------------------------



E|--------------------------------------
B|--------------------------------------
G|-----5--7--5--4--5-----7--9--7--5--7--
D|--3-----------------5-----------------
A|--------------------------------------
E|--------------------------------------



E|----------------------------------------------
B|----------------------------------------------
G|--17--12--14--9--14--12--17--12--14--9--7--5--
D|----------------------------------------------
A|----------------------------------------------
E|----------------------------------------------
http://www.guitartabcreator.com
Guitar Tab Creator is intended to store guitar tab created through the tool. It currently does not support in-line text editing. Any text you place in here will be lost. If you need to comment on your tab, please use the "Tab Notes" section located below.