Base Jumper Solo - 0:4

(/) Slide Up  (\) Slide Down  (h) Hammer On  (p) Pull Off  (b) Bend (r) Release (v) Vibrato

E|-----------------------------------------------------------------------------------------
B|-----------------------------------------------------------------------------------------
G|-----------------------------------------------------------------------------------------
D|--12----------12--14--12----12----------12--17--16--14----12----------12--14--12---------
A|------12--14--------------------12--14------------------------12--14---------------------
E|-----------------------------------------------------------------------------------------



E|------------------------------
B|------------------------------
G|------------------------------
D|--12----------12--17--16--14--
A|------12--14------------------
E|------------------------------



E|--------
B|--------
G|--------
D|--------
A|--------
E|--------
http://www.guitartabcreator.com
Guitar Tab Creator is intended to store guitar tab created through the tool. It currently does not support in-line text editing. Any text you place in here will be lost. If you need to comment on your tab, please use the "Tab Notes" section located below.