Auld Lang Syne - Track 1

(/) Slide Up  (\) Slide Down  (h) Hammer On  (p) Pull Off  (b) Bend (r) Release (v) Vibrato


E|----------------------------------------------------------------------------
B|----------------------------------------------------------------------------
G|----------------------------------------------------------------------------
D|---9------------------------------------------------------------------------
A|-------10---9---10-------12---10---12-------12---10---10--------------------
E|---------------------9------------------9------------------9---12---12/14---



E|-------------------------------------------------------------------------------
B|-------------------------------------------------------------------------------
G|-------------------------------------------------------------------------------
D|-------------------------------------------------------11---11---9-------------
A|---------------------10---12---10---12-------12---10-----------------10--------
E|---14---12---9---9-----------------------9--------------------------------14---



E|---------------------------------------------------------------------
B|---------------------------------------------------------------------
G|---------------------------------------------------------------------
D|--------------------------------------------------11---11---9--------
A|----------------10---12---10---12-------12---10-----------------10---
E|---12---9---9-----------------------9--------------------------------
Guitar Tab Creator is intended to store guitar tab created through the tool. It currently does not support in-line text editing. Any text you place in here will be lost. If you need to comment on your tab, please use the "Tab Notes" section located below.