Alternosfera-arunca-mi

(/) Slide Up  (\) Slide Down  (h) Hammer On  (p) Pull Off  (b) Bend (r) Release (v) Vibrato


E|----------------------
B|----------------------
G|----------------------
D|--3--5--10--12--7--8--
A|--3--5--10--12--7--8--
E|--1--3--8---10--5--6--



E|---------------------
B|---------------------
G|---------------------
D|--3--5--0--10--8--5--
A|--3--5--0--10--8--5--
E|--3--5--0--10--8--5--



E|------------------
B|------------------
G|------------------
D|--0--3--10--9--5--
A|--0--3--10--9--5--
E|--0--3--10--9--5--
http://www.guitartabcreator.com
Guitar Tab Creator is intended to store guitar tab created through the tool. It currently does not support in-line text editing. Any text you place in here will be lost. If you need to comment on your tab, please use the "Tab Notes" section located below.