Rock Around the Clock


G|-----------------------------------------------------------------------
D|-------------------------------------------------------3----3----3--3--
A|--1------------1--1--1------------1--1--1------------------------------
E|-----------------------------------------------------------------------

G|--------------------------------------------------
D|--------0--1--3--1--0-----------0--1--3--1--0-----
A|--1--3-----------------3--1--3-----------------1--
E|--------------------------------------------------

G|--------0--3--------0--3--
D|--1--3--------1--3--------
A|--------------------------
E|--------------------------

G|--------------------------
D|--------0--1--3--1--0-----
A|--1--3-----------------1--
E|--------------------------

G|-----0--1--0--------------
D|--3-----------3--1--0-----
A|-----------------------3--
E|--------------------------

G|--------------3--0--------
D|--------0--3--------3--0--
A|--1--3--------------------
E|--------------------------

G|--3--0-----------------------------------------------------------------------------------
D|--------3--0----------------------------------------2--1--1--1----1--1--1----------------
A|--------------1--1--1------1--1--1----1--1----1--1-------------------------1--1--1-------
E|-----------------------------------------------------------------------------------------

G|------------------------------------------------------------
D|-----------3--3--3----3--3--3-----0--1--2--3----------------
A|--1--1--1----------------------1----------------------1-----
E|------------------------------------------------------------
http://www.guitartabcreator.com
Guitar Tab Creator is intended to store guitar tab created through the tool. It currently does not support in-line text editing. Any text you place in here will be lost. If you need to comment on your tab, please use the "Tab Notes" section located below.