Mission impossible

(/) Slide Up  (\) Slide Down  (h) Hammer On  (p) Pull Off  (b) Bend (r) Release (v) Vibrato



G|--------1--3--------------
D|--3--3--------3--3--1--2--
A|--------------------------
E|--------------------------


G|--------1--3--------------
D|--3--3--------3--3--------
A|--------------------------
E|--------------------4--5--


G|--------------------------------------------------
D|-----------1-----------------------1-----------1--
A|--1--1--4-----1--1-----0--1--1--4-----1--1--4-----
E|--------------------4-----------------------------


G|--------1--3--------------3--3--------
D|--3--3--------3--3--1--2--------------
A|--------------------------------4--4--
E|--------------------------------------


G|-----------------------------
D|-----------1-----------1-----
A|--3--3--4-----3--3--4-----3--
E|-----------------------------


G|--------3-----
D|-----3-----3--
A|--1-----------
E|--------------


G|--------------------------
D|-----------1--------------
A|--1--1--4-----1--1-----0--
E|--------------------4-----


G|--------3-----
D|-----3-----3--
A|--1-----------
E|--------------


G|-----------------------1--------1--3--------------------1--3--------------
D|-----------1--3--3--4-----3--3--------3--3--1--2--3--3--------3--3--1--2--
A|--1--1--4-----------------------------------------------------------------
E|-------------------------------------------------------------------------- http://www.guitartabcreator.com
Guitar Tab Creator is intended to store guitar tab created through the tool. It currently does not support in-line text editing. Any text you place in here will be lost. If you need to comment on your tab, please use the "Tab Notes" section located below.