Georgia on my mind


G|--3-------------
D|----------------
A|---------4------
E|----------------

G|-----3--0-----------0--------0-----------------------------------3-----------------------3-----
D|--1--------1--0--0--------------------------------------2--3--3--------1--1--4--4--3--3-----2--
A|--------------------------3-----3--1--0--0--------------------------1--------------------------
E|-----------------------3--------------------4--4--3--3-----------------------------------------

G|-----3--0-----0--------------0-----------------1--0--------------------3--------------------0--0--
D|--1--------1--------------------------------------------------3--3--------1--1--------1--3--------
A|--------------------0--2--3-----3--1--0--0-----------4--3--3--------1-----------4--4--------------
E|-----------------3--------------------------4-----------------------------------------------------

G|--5--5--4--4--3--3--1--1--5--5--------5--5--------------------------------0--0--5-----------3-----
D|--------------------------------3--3--------3--3-----------------------0--------------3--3-----2--
A|--------------------------------------------------3--3--2--2--1--1--0--------------3--------------
E|--------------------------------------------------------------------------------------------------

G|--------0-----------0-----------------------------------------------3-----------------------------
D|--1--3-----1--0--0--------------------------------------------3--3-----------------------3-----0--
A|-----------------------2--3--3--1--1--0--0-----------4--3--3-----------1--4--4--3-----------1-----
E|--------------------------------------------4--4--3--------------------------------2--1-----------

G|-----3--0-----------0--------0--------------------------------------3-----------------------3-----
D|--1--------1--0--0--------------------------------1--0--------3--3--------1--1--4--4--3--3-----2--
A|--------------------------3-----3--1--0--0--------------3--3-----------1--------------------------
E|-----------------------3--------------------4--4--------------------------------------------------

G|-----3--0-----0--------------0-----------------1--0--0-----------------3--------------------0--0--
D|--1--------1-----------------------------------------------2--3--3--------1--1--------1--3--------
A|--------------------0--2--3-----3--1--0--0--------------3-----------1-----------4--4--------------
E|-----------------3--------------------------4-----------------------------------------------------

G|--5--5--4--4--3--3--1--1--5--5--------5--5--------------------------------0--0--5-----------3-----
D|--------------------------------3--3--------3--3-----------------------0--------------3--3-----2--
A|--------------------------------------------------3--3--2--2--1--1--0--------------3--------------
E|--------------------------------------------------------------------------------------------------

G|-----3--0-----0--------------0-----------------1--0--------------------3-----1-----------0--------
D|--1--------1--------------------------------------------------3--3--------------3-----------2-----
A|--------------------0--2--3-----3--1--0--0-----------4--3--3--------1-----4--------4--3--------3--
E|-----------------3--------------------------4-----------------------------------------------------

G|-----0--1--2--3---------------------------------------
D|--3-----------------------1--------------2--1------1--
A|-----------------1-----------------0--1---------------
E|-----------------------------3--4---------------------
Guitar Tab Creator is intended to store guitar tab created through the tool. It currently does not support in-line text editing. Any text you place in here will be lost. If you need to comment on your tab, please use the "Tab Notes" section located below.