Suede, "The Next Life"

(/) Slide Up  (\) Slide Down  (h) Hammer On  (p) Pull Off  (b) Bend (r) Release (v) Vibrato

E|---2-3---2-3---2-3---2-3---2-3---2-3---2-3---2-3-----5-----5-----5-----5-
B|-3-----3-----3-----3-----3-----3-----3-----3-------6-----6-----6-----6---
G|-------------------------------------------------7-----7-----7-----7-----
D|-0-----0-----0-----0-----------------------------------------------------
A|-------------------------2-----2-----2-----2-----------------------------
E|-------------------------------------------------6-----6-----6-----6-----



E|-------5---------------------
B|-----8---8-6---5---5---8-6-5-
G|---7-------------5---5-------
D|-----------------------------
A|-----------------------------
E|-8-----------8---------------



E|-----------------------------------------------------------------
B|---0---0---3-1-0---0---0---3-1-0---0---0---3-1-0---0---0---3-1-0-
G|-----0---0-----------0---0-----------0---0-----------0---0-------
D|-----------------------------------------------------------------
A|-----------------------------------------------------------------
E|-3---------------3---------------1---------------1---------------



E|-3---------5---------7---------8-----0-0-0-0-0-0-2-2-2-2-2-2-
B|---3---------3---------5---------5---1-1-1-1-1-0-3-3-3-3-3-3-
G|-----3---3-----3---3-----5---5-----5-0-0-0-0-0-0-2-2-2-2-2-2-
D|---------------------------5---------------------------------
A|-3-----3---------3-------------------------------------------
E|-------------------------------------------------------------



E|-3-3-3-3-3-3-3-3-3-3-3-3-0-0-0-0-0-0-0-0-0-0-0-0-3---------5---------7---------5-
B|-0-0-0-0-0-0-0-0-0-0-0-0-0-0-0-0-0-0-0-0-0-0-0-0---3---------3---------5---------
G|-0-0-0-0-0-0-0-0-0-0-0-0-0-0-0-0-0-0-0-0-0-0-0-0-----3---3-----3---3-----5---5---
D|-0-0-0-0-0-0-0-0-0-0-0-0-0-0-0-0-0-0-0-0-0-0-0-0---------------------------5-----
A|-2-2-2-2-2-2-2-2-2-2-2-2-2-2-2-2-2-2-2-2-2-2-2-2-3-----3---------3---------------
E|-3-3-3-3-3-3-3-3-3-3-3-3-0-0-0-0-0-0-0-0-0-0-0-0---------------------------------



E|-0-0-0-0-0-0-2-2-2-2-2-0-0-0-0-0-0-2-2-2-2-2-2-2-2-2-2-2-2-
B|-1-1-1-1-1-0-3-3-3-3-3-1-1-1-1-1-0-3-3-3-3-3-3-3-3-3-3-3-3-
G|-0-0-0-0-0-0-2-2-2-2-2-0-0-0-0-0-0-2-2-2-2-2-2-2-2-2-2-2-2-
D|-----------------------------------------------------------
A|-----------------------------------------------------------
E|-----------------------------------------------------------



E|-----------------------------------------------------0-----0-----0-----0-
B|---2-3---2-3---2-3---2-3---2-3---2-3---2-3---2-3---1-----1-----1-----1---
G|-2-----2-----2-----2-----2-----2-----2-----2-----2-----2-----2-----2-----
D|-------------------------------------------------3-----3-----3-----3-----
A|-0-----0-----0-----0-----------------------------------------------------
E|-------------------------2-----2-----2-----2-----------------------------



E|-----------0--------------------------------17--
B|--------3-----3--0-----0-----0-----3--1--0--17--
G|-----0--------------------0-----0-----------18--
D|------------------------------------------------
A|--------------------------------------------0---
E|--3-----------------3---------------------------
http://www.guitartabcreator.com
Guitar Tab Creator is intended to store guitar tab created through the tool. It currently does not support in-line text editing. Any text you place in here will be lost. If you need to comment on your tab, please use the "Tab Notes" section located below.