Eleanor Rigby

(/) Slide Up  (\) Slide Down  (h) Hammer On  (p) Pull Off  (b) Bend (r) Release (v) Vibrato


E|---------------------5--------5--------3-----3--5----------------
B|---------------------7--------7--------5-----3--5-------------4--
G|-------4--5-------4--7--6--4--6--4-----4-----4--5-------4--5--4--
D|--5h7-----7--5h7-----7--------7-----7-----7--5--7--5h7--------4--
A|----------7-------------------------------------7----------------
E|-----------------------------------------------------------------



E|---------------------5--------5--------3-----3--5-------------
B|---------------------7--------7--------5-----3--5-------------
G|-------4--5-------4--7--6--4--6--4-----4-----4--5-------4--5--
D|--5h7-----7--5h7-----7--------7-----7-----7--5--7--5h7--------
A|----------7-------------------------------------7-------------
E|--------------------------------------------------------------
http://www.guitartabcreator.com
Guitar Tab Creator is intended to store guitar tab created through the tool. It currently does not support in-line text editing. Any text you place in here will be lost. If you need to comment on your tab, please use the "Tab Notes" section located below.