Blues Rhythm with Chords

(/) Slide Up  (\) Slide Down  (h) Hammer On  (p) Pull Off  (b) Bend (r) Release (v) Vibrato


E|-----------------------|-----------------------|--------------------------------------------------|--
B|--------8-----7--5-----|--5-----7--5-----------|--------13-----12--10-----10-----12--10-----------|--
G|--------9-----7--6-----|--6-----7--6-----------|--------14-----12--11-----11-----12--11-----------|--
D|-----------------------|-----------------------|--0--0------0----------0------0----------0--------|--
A|--0--0-----0--------0--|-----0--------0--3--4--|--------------------------------------------3--2--|--
E|-----------------------|-----------------------|--------------------------------------------------|--



E|-----------------------|-----------------------|--
B|--------8-----7--5-----|--5-----7--5-----------|--
G|--------9-----7--6-----|--6-----7--6-----------|--
D|-----------------------|-----------------------|--
A|--0--0-----0--------0--|-----0--------0--------|--
E|-----------------------|-----------------3--2--|--
http://www.guitartabcreator.com
Guitar Tab Creator is intended to store guitar tab created through the tool. It currently does not support in-line text editing. Any text you place in here will be lost. If you need to comment on your tab, please use the "Tab Notes" section located below.