Scales - John Mayer Blues

(/) Slide Up  (\) Slide Down  (h) Hammer On  (p) Pull Off  (b) Bend (r) Release (v) Vibrato


E|--------------------------------2--5--
B|--------------------------2--5--------
G|--------------------2--4--------------
D|--------------2--4--------------------
A|--------2--4--------------------------
E|--2--5--------------------------------



E|--------------------------------5--7--
B|--------------------------5--7--------
G|--------------------4--6--------------
D|--------------4--7--------------------
A|--------4--7--------------------------
E|--5--7--------------------------------



E|------------------------------
B|-----------------------9--10--
G|----------------9--11---------
D|---------9--11----------------
A|--9--12-----------------------
E|------------------------------
http://www.guitartabcreator.com
Guitar Tab Creator is intended to store guitar tab created through the tool. It currently does not support in-line text editing. Any text you place in here will be lost. If you need to comment on your tab, please use the "Tab Notes" section located below.