Melodielijn Autumn Leaves v1

(/) Slide Up  (\) Slide Down  (h) Hammer On  (p) Pull Off  (b) Bend (r) Release (v) Vibrato
E|--------------------------------------------------------
B|--------------------------------------------------------
G|-----------5-------------4------------------------------
D|--2--4--5-------0--2--4----------------7-------------5--
A|------------------------------3--5--7-------2--4--6-----
E|--------------------------------------------------------



E|-----------------------------------------------------------------------------------
B|--------------------------------------------------------------------------3--1-----
G|-----------2-----2------------------------------------------------2-------------4--
D|--2--4--5-----4-----5--2----1--2--4-----4--4--2--4--5----5--4--5-------0-----------
A|-------------------------------------2---------------------------------------------
E|-----------------------------------------------------------------------------------



E|-------------------------------------------------------
B|--------1--1-----------1--0--0-------------------------
G|--3--4--------2--2-------------------2-----------------
D|--------------------4-------------2-----5--4--5-----2--
A|-------------------------------------------------2-----
E|-------------------------------------------------------



E|-----------8-------------7-------------5-------------3--
B|--5--7--8-------3--5--7-------1--3--5-------0--2--4-----
G|--------------------------------------------------------
D|--------------------------------------------------------
A|--------------------------------------------------------
E|--------------------------------------------------------
http://www.guitartabcreator.com
Guitar Tab Creator is intended to store guitar tab created through the tool. It currently does not support in-line text editing. Any text you place in here will be lost. If you need to comment on your tab, please use the "Tab Notes" section located below.