Melodie LM

(/) Slide Up  (\) Slide Down  (h) Hammer On  (p) Pull Off  (b) Bend (r) Release (v) Vibrato


E|-------------------------5--7/9/7--5--5--------9--10--9-------------------------
B|------------5------5--7----------------------------------10---------------------
G|--4/6--4/6-------------------------------------------------------9/11--9--------
D|--------------------------------------------------------------------------------
A|--------------------------------------------------------------------------------
E|--------------------------------------------------------------------------------



E|----------------------10--12/14--12--10--10--------12--10--9h10p9-----------------------------
B|--------10--------12-----------------------------------------------10------10--12b14--12--10--
G|--9/11----------------------------------------------------------------------------------------
D|----------------------------------------------------------------------------------------------
A|----------------------------------------------------------------------------------------------
E|----------------------------------------------------------------------------------------------



E|-------------------------------------------------
B|--10\9-------------------------------------------
G|--------------9/11--9------9---------------------
D|-----------------------11-----------9/11--9------
A|---------------------------------------------12--
E|-------------------------------------------------
http://www.guitartabcreator.com
Guitar Tab Creator is intended to store guitar tab created through the tool. It currently does not support in-line text editing. Any text you place in here will be lost. If you need to comment on your tab, please use the "Tab Notes" section located below.