Majeur Pentatonisch

(/) Slide Up  (\) Slide Down  (h) Hammer On  (p) Pull Off  (b) Bend (r) Release (v) Vibrato

E|--------------------------------5--7--9--
B|--------------------------5--7-----------
G|--------------------4--6-----------------
D|--------------4--7-----------------------
A|--------4--7-----------------------------
E|--5--7-----------------------------------



E|--------------------------5--7--10--
B|--------------------5--7------------
G|--------------4--7------------------
D|--------4--7------------------------
A|--5--7------------------------------
E|------------------------------------



E|-----------------------4--
B|-----------------5--7-----
G|-----------4--6-----------
D|-----4--6-----------------
A|--7-----------------------
E|--------------------------



E|----------------------------9--12--
B|--------------------10--12---------
G|-------------9--11-----------------
D|------9--11------------------------
A|--12-------------------------------
E|-----------------------------------



E|---------------------10--12--14--
B|-------------10--12--------------
G|------9--11----------------------
D|--12-----------------------------
A|---------------------------------
E|---------------------------------



E|-------------------------------------9--12--
B|------------------------------9--12---------
G|-----------------------9--11----------------
D|----------------9--11-----------------------
A|---------9--11------------------------------
E|--9--12-------------------------------------
http://www.guitartabcreator.com
Guitar Tab Creator is intended to store guitar tab created through the tool. It currently does not support in-line text editing. Any text you place in here will be lost. If you need to comment on your tab, please use the "Tab Notes" section located below.