LM

(/) Slide Up  (\) Slide Down  (h) Hammer On  (p) Pull Off  (b) Bend (r) Release (v) Vibrato

E|--------------------------------------------------------------------------------------------
B|-----------------------------------1--------3--------4--------------------------------------
G|-----3--------3--------3--------2-----2--3-----3--5-----5--7--------------------------------
D|--5-----4--5-----4--5-----4--5--------------------------------4--5-----4--5-----------4-----
A|--------------------------------------------------------------------6--------6--------------
E|--------------------------------------------------------------------------------------------



E|-----------------------------------------
B|-----------3--------3--4--3--------------
G|--------------3--5-----------5--3--2-----
D|--5-----4-----------------------------5--
A|-----6-----------------------------------
E|-----------------------------------------



E|-----------------------------------------2--3--
B|-----------------------------------3--4--------
G|--------------------------2--3--5--------------
D|--------------------4--5-----------------------
A|-----------3--5--6-----------------------------
E|--3--5--6--------------------------------------
http://www.guitartabcreator.com
Guitar Tab Creator is intended to store guitar tab created through the tool. It currently does not support in-line text editing. Any text you place in here will be lost. If you need to comment on your tab, please use the "Tab Notes" section located below.