Licks in C-minor

(/) Slide Up  (\) Slide Down  (h) Hammer On  (p) Pull Off  (b) Bend (r) Release (v) Vibrato

E|--------------------------------------------------------------------------------------------------
B|--------------------------------------------------------------------------------------------------
G|----------13p12--------------------------------12--13----h15----p13----p12------------------------
D|--12--15---------15--13--12------------12--15-------------------------------15----13--15--12------
A|-----------------------------15----14---------------------------------------------------------15--
E|--------------------------------------------------------------------------------------------------



E|--11p10p8--------------------------------
B|-----------11--8-------------------------
G|------------------10--8--10b11r8------8--
D|----------------------------------10-----
A|-----------------------------------------
E|-----------------------------------------



E|----------------------
B|--3h4--6--4--3--------
G|----------------5--5--
D|----------------------
A|----------------------
E|----------------------



E|-----------------------------------------------------------------------------------
B|-----------------------------------------------------------------------------------
G|--13----------------------------12--13--15--12-------------------------------------
D|------15--12------------12--15------------------15----13----h15----p13----p12------
A|--------------15----14---------------------------------------------------------15--
E|-----------------------------------------------------------------------------------
http://www.guitartabcreator.com
Guitar Tab Creator is intended to store guitar tab created through the tool. It currently does not support in-line text editing. Any text you place in here will be lost. If you need to comment on your tab, please use the "Tab Notes" section located below.