G major Scales

(/) Slide Up  (\) Slide Down  (h) Hammer On  (p) Pull Off  (b) Bend (r) Release (v) Vibrato


E|-----------------------------------------2--3-----
B|-----------------------------------3--5-----------
G|--------------------------2--4--5-----------------
D|-----------------2--4--5--------------------------
A|--------2--3--5-----------------------------------
E|--3--5--------------------------------------------



E|--------------------------
B|-----------------5--7--8--
G|--------4--5--7-----------
D|--5--7--------------------
A|--------------------------
E|--------------------------



E|--
B|--
G|--
D|--
A|--
E|--
http://www.guitartabcreator.com
Guitar Tab Creator is intended to store guitar tab created through the tool. It currently does not support in-line text editing. Any text you place in here will be lost. If you need to comment on your tab, please use the "Tab Notes" section located below.