Blue Bossa Scales Majeur

(/) Slide Up  (\) Slide Down  (h) Hammer On  (p) Pull Off  (b) Bend (r) Release (v) Vibrato


E|--------------------------------4--6--
B|--------------------------4--6--------
G|--------------------3--6--------------
D|--------------3--6--------------------
A|--------4--6--------------------------
E|--4--6--------------------------------



E|--------------------------------6--9--
B|--------------------------6--9--------
G|--------------------6--8--------------
D|--------------6--8--------------------
A|--------6--8--------------------------
E|--6--9--------------------------------



E|-------------------------------------9--11--
B|------------------------------9--11---------
G|-----------------------8--10----------------
D|----------------8--11-----------------------
A|---------8--11------------------------------
E|--9--11-------------------------------------
http://www.guitartabcreator.com
Guitar Tab Creator is intended to store guitar tab created through the tool. It currently does not support in-line text editing. Any text you place in here will be lost. If you need to comment on your tab, please use the "Tab Notes" section located below.