Blue Bossa Melodielijn Versierd

(/) Slide Up  (\) Slide Down  (h) Hammer On  (p) Pull Off  (b) Bend (r) Release (v) Vibrato


E|-----3--------------------------------------------------------------------------------------
B|--------6--6p4-------------6--4--3h4p3---------------------------4--4-----------------------
G|----------------5/7/5---------------------4/7\5/4\5--------------------6--6--5--5--3--------
D|--5-----------------------------------------------------------------------------------6-----
A|--------------------------------------------------------------------------------------------
E|--------------------------------------------------------------------------------------------



E|--------------------------------------
B|--------------------------------------
G|----------3---------------3--------5--
D|--6p5--5-------6--6p5--5-----6--5-----
A|--------------------------------------
E|--------------------------------------
http://www.guitartabcreator.com
Guitar Tab Creator is intended to store guitar tab created through the tool. It currently does not support in-line text editing. Any text you place in here will be lost. If you need to comment on your tab, please use the "Tab Notes" section located below.