Autumn Leaves - Licks op gehoor

(/) Slide Up  (\) Slide Down  (h) Hammer On  (p) Pull Off  (b) Bend (r) Release (v) Vibrato


E|-------------------------------------5--8--5------------------------------------------7--8--7--7--------
B|--------------------5--8----7-----7-----------7-------------7--8--8--7----------5--8--------------8--5--
G|-----------------5-------------7-----------------7----4--7--------------7----5--------------------------
D|-----------5--7-----------------------------------------------------------------------------------------
A|--------7-----------------------------------------------------------------------------------------------
E|--5--8--------------------------------------------------------------------------------------------------



E|-----------5-------------------------5--7--5---------------
B|--------5-----5----------------4--7-----------7--4------5--
G|-----5-----------5-----5----4------------------------------
D|--4-----------------4--------------------------------------
A|-----------------------------------------------------------
E|-----------------------------------------------------------
http://www.guitartabcreator.com
Guitar Tab Creator is intended to store guitar tab created through the tool. It currently does not support in-line text editing. Any text you place in here will be lost. If you need to comment on your tab, please use the "Tab Notes" section located below.