Autumn Leaves - Laatste Arpeggio

(/) Slide Up  (\) Slide Down  (h) Hammer On  (p) Pull Off  (b) Bend (r) Release (v) Vibrato


E|---------------------------------5------------------------2--3--2-------------------------
B|------------------------------5-----5------------------3-----------3----------------------
G|-----------------5---------5-----------5--4---------4-----------------4/5--4--------------
D|--7--5-----5--7-----5/4----------------------4/5------------------------------5--2--------
A|--------7---------------------------------------------------------------------------3-----
E|------------------------------------------------------------------------------------------



E|------------------------------
B|------------------------------
G|--------2---------------------
D|--2--4-----4--2--1/4--2--1/2--
A|------------------------------
E|------------------------------
http://www.guitartabcreator.com
Guitar Tab Creator is intended to store guitar tab created through the tool. It currently does not support in-line text editing. Any text you place in here will be lost. If you need to comment on your tab, please use the "Tab Notes" section located below.