Arpeggiossss

(/) Slide Up  (\) Slide Down  (h) Hammer On  (p) Pull Off  (b) Bend (r) Release (v) Vibrato


E|--------------------3--6--3------------4-----------------------------------
B|-----------------4-----------4----4/6-----6--4---------------------3-------
G|-----------3--5---------------------------------5---------------5-----4/5--
D|--------5------------------------------------------6--3------6-------------
A|--3--6---------------------------------------------------------------------
E|---------------------------------------------------------------------------



E|-----------------2-----------------------------------------------------------
B|-----------2--4-------7--4-------------------------------------3-------------
G|--------3-------------------5---------------3---------------5-----4/7\5/4/5--
D|--1--4-------------------------6--4------3-----3/6----3--6-------------------
A|-----------------------------------------------------------------------------
E|-----------------------------------------------------------------------------
http://www.guitartabcreator.com
Guitar Tab Creator is intended to store guitar tab created through the tool. It currently does not support in-line text editing. Any text you place in here will be lost. If you need to comment on your tab, please use the "Tab Notes" section located below.